Bass Tabs Babyface (Bass Tabs) U2  

85
[0]
   0

Tune down standard (E,A,D,G) half a step

There are a lot of variations in this song so I'll just tab it out in full

Verse Riffs:
		           Lyrics enter here
G|-----------------------------------|-----------------------------------|
D|*----------------------------------|-----------------------------------|
A|*-5--5--12--12--14--14--14/-10-/-|-5--5--12--12--14--14--14/--10-/-|
E|-----------------------------------|-----------------------------------|

G|-----------------------------------|-----------------------------------|
D|-----------------------------------|----------------------------------*|
A|--5--5--12--12--15--15--15/-10-/-|-5--5--12--12--14--14--14/--10-/*|
E|-----------------------------------|-----------------------------------|

Chorus:

G|-----------------------------------|-----------------------------------|
D|*----------------------------------|-----------------------------------|
A|*-5-5-5-5-5-5-5-5--3-3-3-3-3-3-3-3-|-2-2-2-2-2-2-2-2-------------------|
E|-----------------------------------|------------------3-3-3-3-3-3-3-3--|

G|-----------------------------------|-----------------------------------|
D|-----------------------------------|-----------------------------------|
A|--5-5-5-5-7-7-9---3-3-3-5-7-7-9--|-2-2-2-5-7-7-9--------------------|
E|------------------------------------------------------3-3-3-3-5-5-7---|

G|-----------------------------------|-----------------------------------|
D|*----------------7--5-7--5-7-------|----------------7--5-7--5-7-------*|
A|*--7---------7---------------------|--7---------7---------------------*|
E|-----------------------------------|-----------------------------------|

Out of chorus:

G|-------------12--------------12----|
D|*---------------------------------*|
A|*--5--(10)------/-5--(10)-------*|
E|-----------------------------------|

Second Verse:

G|-----------------------------------|-----------------------------------|
D|*----------------------------------|-----------------------------------|
A|*-5--5--12--12--14--14---12--10/-|-12---12-0---0--14--14-14/--10-/-|
E|-----------------------------------|-----------------------------------|

G|-----------------------------------|-------------------------------12-|
D|-----------------------------------|----------------------------------*|
A|-14-14-12--12-15-15--14-12/-10-/-|14-14-12-12-15--15--14-12/-10---*|
E|-----------------------------------|-----------------------------------|

Chorus:

G|-----------------------------------|-----------------------------------|
D|*----------------------------------|-----------------------------------|
A|*-5-5-5-5-5-5-5-5--3-3-3-3-3-3-3-3-|-2-2-2-2-2-2-2-2-------------------|
E|-----------------------------------|------------------3-3-3-3-3-3-3-3--|

G|-----------------------------------|-----------------------------------|
D|-----------------------------------|-----------------------------------|
A|--5-5-5-5-7-7-9---3-3-3-5-7-7-9--|--2-2-2-5-7-7-9------------------*|
E|-----------------------------------|-------------------3-3-3-3-5-5-7--|

G|-----------------------------------|-----------------------------------|
D|*----------------7--5-7--5-7-------|----------------7--5-7--5-7-------*|
A|*--7---------7---------------------|--7---------7---------------------*|
E|-----------------------------------|-----------------------------------|

(Break)

Chorus:

G|-----------------------------------|-----------------------------------|
D|*----------------------------------|-----------------------------------|
A|*-5-5-5-5-5-5-5-5--3-3-3-3-3-3-3-3-|-2-2-2-2-2-2-2-2-------------------|
E|-----------------------------------|------------------3-3-3-3-3-3-3-3--|

G|-----------------------------------|-----------------------------------|
D|-----------------------------------|-----------------------------------|
A|--5-5-5-5-7-7-9---3-3-3-5-7-7-9--|--2-2-2-5-7-7-9-------------------|
E|-------------------------------------------------------3-3-3-3-5-5-7--|

G|-----------------------------------|-----------------------------------|
D|*----------------------------------|-/9-9-9-9-9-9-9-7--5-5-5-5-5-5-5-4-|
A|*-5-5-5-5-5-5-5-5--3-3-3-3-3-3-3-3-|-----------------------------------|
E|-----------------------------------|-----------------------------------|

G|-----------------------------------|-----------------------------------|
D|-----------------------------------|-----------------------------------|
A|--5-5-5-5-7-7-9---3-3-3-5-7-7-9--|--2-2-2-5-7-7-9-------------------|
E|-------------------------------------------------------3-3-3-3-5-5-7--|

G|-----------------------------------|-----------------------------------|
D|*----------------7--5-7--5-7-------|----------------7--5-7--5-7-------*|
A|*--7---------7---------------------|--7---------7---------------------*|
E|-----------------------------------|-----------------------------------|

Outro:

G|--------------12--------------12---|------------12--------------12-----|
D|*----------------------------------|----------------------------------*|
A|*--5--(10)------/-5--(10)--------|--5--(10)------/-5--(10)--------*|
E|-----------------------------------|-----------------------------------|

G|-----------------------------------|-----------------------------------|
D|*----------------------------------|----------------------------------*|
A|*--5-------------------------------|--------------------------------5-*|
E|-----------------------------------|-----------------------------------|

Well that's about it, any comments or suggestions then they're welcome.  Hope you enjoy it.