Chords Fix You (Chords) Coldplay  

157
[12]
   0

D
D
D/C#
D/C#
D/A
D/A
G
G
D/F#
D/F#
A
A
Bm7
Bm7
Asus4
Asus4
Fm7
Fm7
Bm
Bm

----------------------------------------------------------------------------
                             FIX YOU - Coldplay
----------------------------------------------------------------------------

Arranged by Tom Evans for acoustic guitar.

For album pitch, use Capo 1.

Intro and Vs. 1 & 2:

     D       D/C#      D/B     D/A

  e|----(2)-----(2)--|----(2)-----(2)----|
  B|-----3-------3---|-----3-------3-----|
  G|---2---2---2---2-|---2---2---2---2---|
  D|-0---------------|-------------------|
  A|---------4-------|-2-------0---------|
  E|-----------------|-------------------|  (Repeat)


Chorus (strum):

   G         D/F# A
      Lights will guide you home...   (x3)


Link / Verse 3 (strum):

     D     Fmadd6 Bm7   Asus4

  e|-2-----2----|-2-----0----|
  B|-3-----3----|-3-----3----|
  G|-2-----2----|-2-----2----|
  D|-0----(0)---|-4-----2----|
  A|-x-----4----|-2-----x----|
  E|-x-----2----|-x-----x----|  (Repeat)


Chorus:

   G         D/F# A
      Lights will guide you home...   (x3)


Solo:

  |D|D|G|G|D|D|Asus4|A|   x4


Trio:

  D               G  
     Tears stream   down your face
  D                          Asus4      A
     When you lose something you cannot replace

  D               G  
     Tears stream   down your face...and
  D                          Asus4      A
  I-I-I-I-I............

  D               G  
     Tears stream   down your face
  D                       Fm7      
     I promise you I will learn from my mistakes
  Bm              G  
     Tears stream   down your face...and
  D                   Asus4      A
  I-I-I-I-I............


Chorus:

   G         D/F# A
      Lights will guide you home...   (x2)
   G        D/F# A               D
      and I will try to fix you.