chords All The Time (Chords) Green Day  

159
[0]
   1

E
E
D
D
A5
A5
G#5
G#5
G5
G5
C#
C#
B
B
C
C

	   Rhy. Fig. 1
   E     D   A5      E     D   A5      E     D   A5      E     D   A5
E|-----------------|-----------------|-----------------|-----------------|G
B|-----------------|-----------------|-----------------|-----------------|U
G|-9-9---7---------|-9-9---7---------|-9-9---7---------|-9-9---7---------|I
D|-9-9---7---7---X-|-9-9---7---7---X-|-9-9---7---7---X-|-9-9---7---7-----|T
A|-7-7---5---7---X-|-7-7---5---7---X-|-7-7---5---7---X-|-7-7---5---7-----|A
E|-----------5---X-|-----------5---X-|-----------5---X-|-----------5-----|R

Rhy. Fig. 2
  G#5  A5        G5        D          G#5  A5        G5        D
E|-----------------|-----------------|-----------------|-----------------|G
B|-----------------|-----------------|-----------------|-----------------|U
G|-----------------|-------7---7-7---|-----------------|-------7---7-7---|I
D|-6-/-7---7-7-7-5-|---5-5-7---7-7---|-6-/-7---7-7-7-5-|---5-5-7---7-7---|T
A|-6-/-7---7-7-7-5-|---5-5-5---5-5-0-|-6-/-7---7-7-7-5-|---5-5-5---5-5-0-|A
E|-4-/-5---5-5-5-3-|---3-3---------0-|-4-/-5---5-5-5-3-|---3-3---------0-|R

Rhy. Fig. 3
   A5   C# D  C# A5  G5    B C        A5    C# D  C# A5  G5    B C
E|-----------------|-----------------|-----------------|-----------------|G
B|-----------------|-----------------|-----------------|-----------------|U
G|-------6-7---6---|-------4-5-5-5---|-------6-7---6---|-------4-5-5-5---|I
D|-7---7-6-7---6-7-|-5---5-4-5-5-5---|-7---7-6-7---6-7-|-5---5-4-5-5-5---|T
A|-7---7-4-5---4-7-|-5---5-2-3-3-3-0-|-7---7-4-5---4-7-|-5---5-2-3-3-3-0-|A
E|-5---5---------5-|-3---3---------0-|-5---5---------5-|-3---3---------0-|R

Intro w/ Rhy. Fig. 1

Verse 1 w/ Rhy. Fig. 2
All the time, every time I need it.
What's the time?
I'd say the time is right.
Here's to me.
Let's find another reason.
Down the hatch.
And a bad attitude, salud.

Bridge w/ Rhy. Fig. 1
Wasting time, wasting time down a bum fuck road.
And I don't know where the hell it'll go.
Heirlooms and huffing fumes, and I'm picking up the pace
and I'm gonna smash straight into a wall.

Verse 2 w/ Rhy. Fig. 2
All the time.
A "New Years Resolution" how soon that we forget.
Doing time.
Loving every minute.
Live it up on another let down. salud.

Bridge w/ Rhy. Fig. 1
Promises, promises, it was all set in stone.
Cross my heart and hope to die.
Sugar fix.
Dirty tricks and a trick question.
Guess I should have read between the lines.

Interlude - Rhy. Fig. 2

Chorus w/ Rhy. Fig. 3
Having the time of my life,
watch the clock tick.

Verse 3 w/ Rhy. Fig. 2
All the time, where did all the time go?
It's too late to say goodnight.
Time flies when you're having fun.
Times up when you work like a dog, salud.