chords Breathe Out (Chords) Jason Mraz  

129
[0]
   0

D9
D9
Em
Em
C9
C9
D5
D5

	  Well someone asked for this tab on yahoo answers. First time I heard it, but seeing as I tabbed it for him I figure I should put it on this site. 
I dont know how a capo thing works, but I think he uses that on the 2nd fret. I'm not really sure what to call the chords. Well this is what I got. 

Verse: 
    D9     Bm7+/11?      C6/9 
e|--0---------0-----------0----| 
B|--3---------3-----------3----| 
G|--2---------2-----------2----| 
D|--0---------0-----------0----| 
A|------------2-----------3----| 
E|-----------------------------| 

Chorus 

   Em     C9     D5 
E|--0------0------5--| 
B|--0------1h3----3--| 
G|--0------0------2--| 
D|--2------2------0--| 
A|--2------3------0--| 
E|--0------0---------| 


Ending 

   D5 
E|--5--| 
B|--3--| 
G|--2--| 
D|--0--| 
A|--0--| 
E|-----| x like a bazillion 

First tab for a guitar. I think its fairly accurate but I could be wrong. 
	  

Fuente: http://www.e-chords.com/chords/jason-mraz/breathe-out