Chords Always Alone (Chords) Johnny Cash  

126
[0]
   0

ALWAYS ALONE
-T.Daffan-
Recorded May 15, 1958, Sun Studio
Released as Sun LP 1275 


KEY: Bb / CAPO: 1 / PLAY: A

INTRO:
e-----------------------------------------------------------------
B-----------------------------------------------------------------
G----------2--1---------------------------------------------------
D-2--2--4---------4-2---------------------------------------------
A------------------------4-5--4/2--0------------------------------
E-----------------------------------------------------------------

VERSE:
A                      D
Always alone alone and blue
D           E                       A
I've got no one to tell my troubles to
A                         D
No one to care to call my own
D             E                 A
It seems that I must always be alone

VERSE:
The day you left you broke my heart
I need you so but we're so far apart
You didn't care I should have known
That you would go and leave me all alone

BREAK:
e----------------------------------------------------------------
B----------------------------------------------------------------
G---------------------------------2--1---------------------------
D------------------------0---0--4--------4--2--------------------
A-0--0--2--4----0--2--4-----------------------4--5---2--0--------
E----------------------------------------------------------------

VERSE:
There is no one to take your place
Each night in dreams I see your smiling face
Then I awake and find you gone
I know that I must always be alone 

Fuente: http://www.azchords.com/j/johnnycash-tabs-2070/alwaysalone-tabs-578966.html