Drum Tabs Eternal Life (Drum Tabs) Jeff Buckley  

66
[0]
   1

-------------------------------------------------------------------------------
			     ETERNAL LIFE (Live) - Jeff Buckley
-------------------------------------------------------------------------------
Tabbed by: Teddy Uns.


Tuning:Standard

e|---------------------------|
B|---------------------------|
G|-------6-------6----6------|  This can be played as many times as you like.
D|-------6-------6----6------| For the second guitar and bass just let
A|-------4-------4----4------|  the distortion scream in the background.
E|--0000----0000---00--------|
[ Tab from: http://www.guitaretab.com/j/jeff-buckley/182007.html ]
Then the Verse:
e|------------0-00-0-0------3-3-3-3-----------1--------------------------------------------------|
B|------------1-11-1-1------3-3-3-3-----------1--------------------------------------------------|
G|--------0---0-00-0-0------0-0-0-0-----------2-------------6------6----6--------6-------6-----6-|
D|-----2------2-22-2-2------0-0-0-0-----0h2p0-3-------------6------6----6--------6-------6-----6-|
A|--3---------3-33-3-3----2-2-2-2-2--02-------3-------------4------4----4--------4-------4-----4-|
E|----------------------3---3-3-3-3-----------1---------0000---0000---00-----0000----0000----00--|
                                 Do This section 4 times.

Then:
e|-----------------------------------------|
B|-----------------------------------------|
G|-----------------------------------------|
D|-----------------------------------------| Then play the intro over the rest
A|--2-2-2-2-4-4-4-4-5-5-5-5-5-5-7-7-7-7-7--|
E|-----------------------------------------|

the big long shouty bit. woahhh and all that stuff:
e|----------------------------------------------------------------------|
B|--------------------------------------------------------------XXXXX---|
G|---6--------5--------------------2--------2-2-2------------2--XXXXX---|
D|-----x8-------x8---4------3--------x8-----2-2-2---2--1-----2--XXXXX---|
A|---4--------3--------x8-----x8---2--------0-0-0--0--0--05-0---XXXXX---|
E|-------------------2------1-------------------------------------------|

And to Finish play the octaves as chords and it will work.
I dont want any complaint for this, because it is 100% accurate. So trust me.

Big love, Ted.


| h  hammer-on
| p  pull-off
| x  Mute note
=============================================================================