Drum Tabs Cigarettes And Alcohol (Drum Tabs) Oasis  

338
[0]
   1

Seen a few tabs, none of them seem too accurate to me, so i thought Id tab the solos 
or atleast try.

First Guitar Solo~Roughly 3 mins in (Before Liam Starts repeating "You gotta fake it"

e--------------------------------------------|
b------------10-9--9-------------------------|
g------------11-9--11bb-11-9-9h11p9----------|
d-------9h11---------------------------------|
a--9h11--------------------------------------|
e--------------------------------------------|

e---------------------9----------------------|
b------------10-9--9-------------------------|
g------------11-9--11b--11-9-9h11p9----------|
d-------9h11---------------------------------|
a--9h11--------------------------------------|
e--------------------------------------------|

e--------------------------------------------|
b------------10-9--9-------------------------|
g------------11-9--11bb-11-9-9h11p9----------|
d-------9h11---------------------------------|
a--9h11--------------------------------------|
e--------------------------------------------|
[ Tab from: http://www.guitaretab.com/o/oasis/42355.html ]
e--------------------------------------------|
b------------10-9--9-------------------------|
g------------11-9--11bbbbbbbb~~--------------|
d-------9h11---------------------------------|
a--9h11--------------------------------------|
e--------------------------------------------|

Second Guitar Solo (Or Outro)

e------------------------------------------------------------------|
b--12--------------------------------------12----------------------|
g--14bbb-14-------12----------12----12-----14b-------12------------|
d-----------12h14----14-12h14----14----14------12h14---14~---------|
a----------------------------------------------------------4-4-2-2-|
e----------------------------------------------------------0-0-0-0-|

Repeat this then:

e-------------------------------------------------------------|
b--12------------14------------15------------17---------------|
g--14bb----------16bb----------17bb----------19bbbbbbbbbb-----|
d-------------------------------------------------------------|
a--------4-4-2-2-------4-4-2-2------4-4-2-2-------------------|
e--------0-0-0-0-------0-0-0-0------0-0-0-0-------------------|