Guitar Tabs Crazy For You (Guitar Tabs) Adele  

121
[0]
   0

Adele
Crazy For You

Standard Tuning

This pattern isn't 100% correct. It's more like a reference. But I'm completely sure the 
are perfect. So play around with it, and find a pattern you enjoy.

Intro/Verse
|--------------------|
|--------------------|
|--------------------| 2x
|------0-------2-0---|
|----2---2---2-----2-|
|--3-------0---------|

|--------------------------------------|
|--------------------------------------|
|--------------------------------------|
|------7-------7--------9----9----7----| 1x
|----7---7---7---7----9---9--9----7----|
|--8-------8-------10--------10---8----|

In Between Verses play:
|--------------------|
|--------------------|
|--------------------| 2x
|------0-------2-0---|
|----2---2---2-----2-|
|--3-------0---------|

Chorus
"Tell me to run and I'll race if you want me to stop I’ll freeze,
and if you are me gonna leave, just hold me closer baby..."

|------------------------------------------------------------|
|------------------------------------------------------------|
|------------------------------------------------------------|
|------5-------5-------7-------7-------3-------3---------5---|
|----5---5---5---5---7---7---7---7---2---2---2---2-----4-----|
|--6-------6-------8-------8-------3-------3-------5-5-------|

"And make me."

"Crazy For you..."
|--------------------------------------------------------------------------|
|--------------------------------------------------------------------------|
|--------------------------------------------------------------------------|
|------7-------7--------9--------9---------0-------2-0-------0-------2-0---|
|----7---7---7---7----9---9----9---------2---2---2-----2---2---2---2-----2-|
|--8-------8-------10-------10-------0-3-------0---------3-------0---------|

Then back to verse, and so on and so forth.

Questions, Comments, Concerns?

Thank You, and Enjoy!

:)