Guitar Tabs First Love (Guitar Tabs) Adele  

65
[0]
   0

Theres no guitar in this song but I tabbed the melody.
Pretty much the whole song uses chords F C Em Am.  Enjoy.

----------------------------------------------------------------------------------|
-----------------------------------------------------------1-------------------1--|
--------------2---------------------2-------------0---------0---------0-----------|
------3----------3----------3---------3-------------2---------2---------2---------|
----------3----------3----------3---------3--3--------------------3---------------|
--1----------------------1--------------------------------------------------------|


-------------------------------------------------------------------------------------|
-------------0---------------------0--------------------1--------------------1-------|
-----0----------0----------0---------0---------2---------2---------2----------2------|
---------2----------2----------2---------2---------2---------2---------2----------2--|
--2---------------------2--------------------0--------------------0------------------|
-------------------------------------------------------------------------------------|

Repeat throughout