Guitar Tabs All Alone (Guitar Tabs) Green Day  

132
[0]
   0

band Green day


e----------------------------------|
B--7---7---7---7---8---8---8---8---|
G----7---7---7---7---7---7---7---7-|
D----------------------------------|
A----------------------------------|
E----------------------------------|

e--------------------------------------|
B--9---9---9---9---10---10---10---10---|
G----9---9---9---9----9----9----9----9-|
D--------------------------------------|
A--------------------------------------|
E--------------------------------------|

This song is at the very end of dookie.
It's realy easy and cool so as it's my first tab I decided to do it. 
Have fun you guies that are just starting.
Green Day rox!!!

CHTEBETTERRRR!!!!!!

Fuente: http://www.azchords.com/g/greenday-tabs-1705/allalone-tabs-16448.html