Guitar Tabs Corpus Christi Carol (Guitar Tabs) Jeff Buckley  

37
[0]
   0

To be honest, this is a weird but beautiful song.  I just love the guitar work
in it, its exquisite.  Make note of the tuning and capo before you play, otherwise
it wont really sound anything like the actual song.  This is all my own work, so 
please notify me for permission if you wish to use it on your own site.  Thanks!


CAPO 7TH FRET


INTRO:
------

D|-3-----2-----0-----------------------------------|
A|-5-----------------3-----1-----------------------|
G|-2-----------------------2-----0-----------------|
D|-0-----------------------0-----------3-----2-----|
G|-------------------------------------------------|
D|-------------------------------------------------|

D|-3-----2-----0-----------------------------------|
A|-5-----------------3-----2-----------------------|
G|-2-----------------------2-----0-----------------|
D|-0-----------------------0-----------3-----2-----|
G|-------------------------------------------------|
D|-------------------------------------------------|



PART 1:
-------

D|-3-----------------------2-----------3-----------------------------------|
A|-5-----7-----5-----------1-----------5-----7-----5-----3-----------------|
G|-3-----------------0-----------0-----3-----------0-----------------------|
D|-3-----------------------0-----------3-----------------3--/--2-----------|
G|-------------------------------------------------5-----------------5-----|
D|-------------------------------------------------------------------------|

D|-3-----------2-----------3-----------5-----------3-----------|
A|-5-----3-----3-----3-----5-----3-----2-----------------3-----|
G|-3-----2-----3-----2-----3-----2-----0-----------2-----2-----|
D|-3-----------2-----------3-----2-----0-----2-----0-----------|
G|-------------------------3-----2-----0-----------------------|
D|-------------------------------------------------0-----------|

D|-3-----------------------------------3-----------------------------------|
A|-5-----7-----5-----3-----1-----------5-----7-----5-----------------------|
G|-3-----------------0-----2-----0-----3-----------0-----5-----------------|
D|-------------------------0-----------3-----------------------2-----------|
G|-------------------------------------------------5-----------------5-----|
D|-0-----------------------------------------------------------------------|

D|-3-----------------------------3-----3-----------------------------------|
A|-5-----7-----5-----3-----1-----------5-----7-----5-----3-----------------|
G|-3-----------------0-----2-----------3-----------0-----------------------|
D|-3-----------------------0-----------3-----------------3-----2-----------|
G|-------------------------------------------------5-----------------5-----|
D|-------------------------------------------------------------------------|

D|-3-----------2-----------3-----------5-----------3-----------|
A|-5-----3-----3-----------5-----3-----2-----------5-----3-----|
G|-3-----2-----3-----2-----3-----2-----0-----------2-----------|
D|-3-----------2-----------3-----2-----0-----2-----0-----0-----|
G|-------------------------3-----2-----------------------------|
D|-------------------------------------5-----------0-----------|



PART 2:
-------

D|-3-----------------------------------3-----------------------------------|
A|-5-----7-----5-----3-----1-----------5-----7-----5-----3-----------------|
G|-3-----------------0-----2-----0-----3-----------0-----------3-----------|
D|-3-----------------------0-----------3-----------------------------5-----|
G|-------------------------------------------------5-----------------------|
D|-------------------------------------------------------------------------|

D|-3-----------------------------3-----------------0-----2-----|
A|-5-----7-----5-----3-----1-----5-----1-----3-----1-----3-----|
G|-3-----------------0-----2-----3-----0-----2-----------------|
D|-3-----------------0-----0-----3-----------------------------|
G|-------------------0-----------------------------------------|
D|-------------------------------------------------------------|

D|-3-----------2-----------3-------------5-2-0---2-0-----------|
A|-5-----3-----3-----3-----5-----3-----2-------3---------3-----|
G|-3-----2-----3-----0-----3-----2-----0-----------2-----2-----|
D|-3-----------2-----------3-----2-----0-----------0-----------|
G|-------------------------3-----2-----0-----------------------|
D|-------------------------------------------------------------|

D|-3-----------------------------------3-----------------------------------|
A|-5-----7-----5-----3-----1-----------5-----7-----5-----3-----------------|
G|-3-----------------2-----2-----0-----3-----------3-----------------------|
D|-3-----------------5-----0-----------3-----------------------2-----------|
G|-------------------------------------------------5-----------------5-----|
D|-------------------------------------------------------------------------|

D|-------------0-----2-----3-----------------------2-----3-----5-----7-----|
A|-1-----3-----------------------------------------------------------------|
G|-------------------------------------------------------------------------|
D|-------------------------------------------------------------------------|
G|-------------------------------------------------------------------------|
D|-------------------------------------------------------------------------|

D|-9----------------------15-----------------------------------------------|
A|------------------------12-----------------------------------------------|
G|------------------------10-----------------------------------------------|
D|------------------------10-----------------------------------------------|
G|------------------------10-----------------------------------------------|
D|-------------------------------------------------------------------------|



---------------------------------------------
Transcribed By SANCCO (xxxxxx@yyyyyyy.zzz)
---------------------------------------------