Guitar Tabs (good Ole) Mountain Dew (Guitar Tabs) Johnny Cash  

63
[0]
   0

MOUNTAIN DEW - Tab
By Johnny Cash with Bob Dylan (Dylans Bootleg Series)

VERSE:
e-------------|-------------|-------------------|
b-------------|-----------2-|-2-----------------|
g-----------2-|-2-2-4-2-1---|---4-2-2-2-4-2-----|
d---0-2-2-4---|-------------|---------------4-2-|
a-4-----------|-------------|-------------------|
e-------------|-------------|-------------------|
 Down......    there's...... where......

e-------------|---------------|---------------------|
b-------------|-----2-5-2-----|---2-5-2-------2-----|
g-----------2-|-2-4-------4-2-|-4-------4-2-2---4-2-|
d---0-2-2-4---|---------------|---------------------|
a-4-----------|---------------|---------------------|
e-------------|---------------|---------------------|
 then......    and......       there's......

CHORUS:

e-------------------------|-----------------|
b-------------------2-2---|-----------------|
g-----------2-2-4-2-----4-|-1-2-2-2-4-2-----|
d-----2-2-4---------------|-------------4-2-|
a-4-4---------------------|-----------------|
e-------------------------|-----------------|
 Oh, they......            and them......

e-------------------------|---------------||
b---------------2-5-2-----|---2-5-5-------||
g-----------2-4-------4-2-|-4-------2-4-2-||
d---0-2-2-4---------------|---------------||
a-2-----------------------|---------------||
e-------------------------|---------------||
 Oh, I'll......            with that......