Guitar Tabs A Edificar La Iglesia (Guitar Tabs) Música Católica  

69
[9]
   0

A
A
LA
LA

AHÍ LES DEJO...

A edificar LA iglesia
e|-----3-3-3-1-0-----
B|---1-----------1---
G|-------------------  x2
D|-------------------
A|-------------------
E|-------------------

 A edificar la iglesia del señor
e|---3-3-3--3-5-3--1-0-1----
B|-1------------------------
G|--------------------------
D|--------------------------
A|--------------------------
E|--------------------------

Hermano ven ayúdame Hermana ven ayúdame
e|---1-1-1-0-----------1-1-1-0---------
B|-1---------3-3-3---1---------3-3-3---
G|-------------------------------------
D|-------------------------------------
A|-------------------------------------
E|-------------------------------------

A edificar la Iglesia del Señor
e|-3-3-3-3-5-3-1-0-------
B|-----------------3-1---
G|-----------------------
D|-----------------------
A|-----------------------
E|-----------------------

Yo soy la Iglesia tú eres la Iglesia
e|-3-3-1-0-----3-3-1-0-----
B|---------1-----------1---
G|-------------------------
D|-------------------------
A|-------------------------
E|-------------------------

 Somos la Iglesia del señor
e|----3-3--3-5-3--1-0-1----
B|-------------------------
G|-------------------------
D|-------------------------
A|-------------------------
E|-------------------------

Hermano ven ayúdame Hermana ven ayúdame
e|---1-1-1-0-----------1-1-1-0---------
B|-1---------3-3-3---1---------3-3-3---
G|-------------------------------------
D|-------------------------------------
A|-------------------------------------
E|-------------------------------------

A edificar la Iglesia del Señor
e|-3-3-3-3-5-3-1-0-------
B|-----------------3-1---
G|-----------------------
D|-----------------------
A|-----------------------
E|-----------------------

mi correo: juanda0612@gmail.com

Fuente: http://acordes.lacuerda.net/mus_catolica/a_edificar_la_iglesia-2.shtml