Guitar Tabs Northern Wind (Guitar Tabs) Norman Blake  

42
[0]
   0

Norman Blake/Steve Earle  -  Northern Wind (tab)



To play this song, you play PART 1 twice, and then PART 2 twice.
On the second time through PART 2, when you get to the end, don't play the 
last 2 notes, cos the song ends on the chord.

Where I've indicated that the tonality is of an A chord, you can think either
A or Aadd9....I would personally think Aadd9, but it was quicker to type A...lol


**************************************************************************************



PART 1


   A                     G             A                           

E-----0---0-0---------------0h2-3p2-5----0--0-0-0-----------3p0------------------
B-----3/5-5-5-5-5-3h5p3--0--3---3---3----3/5-5-5-5-3h5p3-3p0---3p0---3-----------
G----------------------4-0--0---0---0-------------------4---------2/4--42-0-----
D------------------------0--0---0--0----------------------------------------2p0--
A--0-----------------------------------0-----------------------------------------
E--------------------------------------------------------------------------------

   A                  G                                               A   G

E-----0---0-0-0----------0-2-3---5--3h5p3------------3h5p3---------------------|
B-----3/5-5-5--3h5p3--0--3---3---3-------5-5-3h5p3-0-0----5-3-0-0h1p0-----0----|
G-------------------4-0--0---0---0-0---------------0------------------2-2--0---|
D---------------------0--0---0-0-0-0----------------------------------2-2------|
A--0------------------------------------------------------------------0-0------|
E-----------------------------------------------------------------------0------|



PART 2


   A                    G               A  

E----3/5--5-5--5-0---------0-2-3---5-5-------5-5--0-0--------3p0------------------
B----3/5--5-5--5-3h5p3--0--3---3---3------3/5-5-5---3h5p3-3p0---3p0---3-----------
G---------------------4-0--0---0---0---------------------4---------2/4--42-0-----
D-----------------------0--0---0-0-------------------------------------------2p0--
A--0------------------------------------0-----------------------------------------
E---------------------------------------------------------------------------------

   A                      G                                                 A   G

E----3/5--5-5--5-0-0---------0-2-3---5----3h5p3------------3h5p3-3------------------|
B----3/5--5-5--5---3h5p3--0--3---3---3-3-0-----5-5-3h5p3-0-0------3-0-0h1p0-----0---|
G-----------------------4-0--0---0---0---------------------0----------------2-2--0--|
D-------------------------0--0---0-0-0--------------------------------------2-2-----|
A--0------------------------------------------------------------------------0-2-----|
E-----------------------------------------------------------------------------0-----|



Fuente: http://www.azchords.com/n/normanblake-tabs-46603/northernwind-tabs-581782.html