Guitar Tabs Right Here Waiting For You (Guitar Tabs) Richard Marx  

26
[0]
   0

xxxxxx@yyyyyyy.zzz

INTRO
                                                        
|-------3-3-3-1-0-------------0-1-0----------------0------------------|
|-----1-----------3-----3-3-3----------------1-1-3---3-1-0-1----------|
|---0-----------------0-----------------------------------------------|
|-------------------0----------------------2--------------------------|
|-3--------------------------------------0----------------------------|
|---------------------------------------------------------------------|


|-------3-3-3-1-0-------------0-1-0----------------0------------------|
|-----1-----------3-----3-3-3----------------1-1-3---3-1-0-1----------|
|---0-----------------0-----------------------------------------------|
|-------------------0----------------------2--------------------------|
|-3--------------------------------------0----------------------------|
|---------------------------------------------------------------------|