Guitar Tabs #10 - Chick Magnet (Guitar Tabs) The Beatles  

57
[0]
   0

Standard tuning

intro:
|------------|
|------------|
|-x-x-x-5~---|
|-x-x-x-5~---|
|-x-x-x-3~---|
|------------|


Verse:
|-------------------------------|
|-------------------------------|
|--5~-----------5-----5---5-----|
|--5~-------------5-----5-------|
|--3~---------3-----------------|
|-------------------------------|


|------------------------------|
|------------------------------|
|--5~--------5-----------------|
|--5~----------5---~SLIDE~-----|
|--3~------3-------~SLIDE~-----|


Chorus:
|-----------------------------|
|-----------------------------|
|--5-5-5-5-5------------------|
|--5-5-5-5-5---33--2--3--5----|
|--3-3-3-3-3---33--2--3--5----|
|--------------11--0--1--3----|4x


|-----------------------------------------|
|-----------------------------------------|
|----------------------------------5------|
|--7-7-7-7-7-7-7-7---3-3-3-3-3-3---5--5---|
|--7-7-7-7-7-7-7-7---3-3-3-3-3-3---3--5---|
|--5-5-5-5-5-5-5-5---1-1-1-1-1-1------3---|2x
                    *or hold one*

|---------------------------------|
|---------------------------------|
|------------------------12121212-|
|--7-7-7-7-7-7-7-7----5--xxxxxxxx-|
|--7-7-7-7-7-7-7-7----5--10101010-|
|--5-5-5-5-5-5-5-5----3-----------|
                         ^^^^^^^^easier on a second guitar

Bridge:
|---------|
|---------|
|---5~----|
|---5~----|
|---3~----|
|---------|

Outro:
|-----------|   |---------------------------|
|-----------|   |---------------------------|
|-----------|   |-5-5-5-5-5-----------------|
|-----------|   |-5-5-5-5-5---33--2--3--5---|
|-**SLIDE**-|   |-3-3-3-3-3---33--2--3--5---|
|-**SLIDE**-|1x |-------------33--0--1--3---|8x


Order:

Intro  0:05 - 0:08   
Verse  0:11 - 0:38
Chorus 0:39 - 1:12
Bridge 1:13 - 1:16
Verse  1:18 - 1:45
Chorus 1:46 - 2:18
Bridge 2:19 - 2:22 
Bridge 2:31 - 2:34
Outro  2:40 - 3:03 
Bridge 3:04 -- end

Easy stuff... no questions asked.. here you go... enjoy. 
xxxxxx@yyyyyyy.zzz ... i shouldn't get complaints.