Ukulele Chords Charlie Brown (Ukulele Chords) Coldplay  

176
[0]
   0

Pretty sure this is 99% but feel free to let me know if there are any corrections!

Artist: Coldplay 
Song: Charlie Brown (Acoustic)
Album: Mylo Xyloto
Tuning: Eb A D G Bb d

Reference Video: http://www.youtube.com/watch?v=woaVsZTheVU&feature=related

Intro/Interlude

Guitar 1

d  |-------------------8-----8---8---8--8---|
Bb |-----12----12---------------------------|
G  |-/10----10-----7h8---8-7---7---7---7--7-|
D  |----------------------------------------|
A  |----------------------------------------|     
Eb |----------------------------------------|

d  |--------------------------------------------------------|
Bb |-----4-----4-------4---------------4----4------4--------|
G  |-3h5---3h5----3h5-----5--3--0--3h5--3h5---3h5-----5--3--|
D  |--------------------------------------------------------|
A  |--------------------------------------------------------|   
Eb |--------------------------------------------------------|

Guitar 2

d  |-x---x----x---x---x----x---|
Bb |-x---x----x---x---x----x---|
G  |-4---12---7---4---12---9---|
D  |-5---13---8---5---13---10--|
A  |-5---13---8---5---13---10--|        
Eb |-4---12---7---4---12---9---|

d  |-x---x----x---x---x----x---x---|
Bb |-x---x----x---x---x----x---x---|
G  |-4---12---7---4---12---12--9---|
D  |-5---13---8---5---13---13--10--|
A  |-5---13---8---5---13---13--10--|    
Eb |-4---12---7---4---12---0---9---|

Verse 1

d  |-x---x----x---x---x----x---|
Bb |-x---x----x---x---x----x---|
G  |-4---12---7---4---12---9---|
D  |-5---13---8---5---13---10--|
A  |-5---13---8---5---13---10--|        
Eb |-4---12---7---4---12---9---|

 I stole a key
 Took a car downtown where the lost boys meet
 Took a car downtown and took what they offered me
 To set me free
 I saw the lights go down at the end of the scene
 I saw the lights go down and they're standing in front of me
 
Interlude

Guitar 1

d  |-------------------8-----8---8---8--8---|
Bb |-----12----12---------------------------|
G  |-/10----10-----7h8---8-7---7---7---7--7-|
D  |----------------------------------------|
A  |----------------------------------------|     
Eb |----------------------------------------|

d  |--------------------------------------------------------|
Bb |-----4-----4-------4---------------4----4------4--------|
G  |-3h5---3h5----3h5-----5--3--0--3h5--3h5---3h5-----5--3--|
D  |--------------------------------------------------------|
A  |--------------------------------------------------------|   
Eb |--------------------------------------------------------|


Guitar 2

d  |-x---x----x---x---x----x---|
Bb |-x---x----x---x---x----x---|
G  |-4---12---7---4---12---9---|
D  |-5---13---8---5---13---10--|
A  |-5---13---8---5---13---10--|        
Eb |-4---12---7---4---12---9---|

d  |-x---x----x---x---x----x---x---|
Bb |-x---x----x---x---x----x---x---|
G  |-4---12---7---4---12---12--9---|
D  |-5---13---8---5---13---13--10--|
A  |-5---13---8---5---13---13--10--|    
Eb |-4---12---7---4---12---0---9---|

Wooh, ooh ooh ooh
 
Verse 2

d  |-x---x----x---x---x----x---|
Bb |-x---x----x---x---x----x---|
G  |-4---12---7---4---12---9---|
D  |-5---13---8---5---13---10--|
A  |-5---13---8---5---13---10--|        
Eb |-4---12---7---4---12---9---|

 And my scarecrow dreams
 When they smashed my heart into smithereens
 Be a bright red rose come bursting the concrete
 Be a cartoon heart

d  |--0----0----0-----0------|
Bb |--0----0----0-----0------|
G  |--2----0----2-----0------|
D  |--3----1----3-----1------|
A  |--3----1----3-----1------|  
Eb |--x----0----x-----0------|

 Light a fire, a fire, a spark
 Light a fire, a flame in my heart
 We'll run wild
 We'll be glowing in the dark
 
Interlude (x2)

Guitar 1

d  |-------------------8-----8---8---8--8---|
Bb |-----12----12---------------------------|
G  |-/10----10-----7h8---8-7---7---7---7--7-|
D  |----------------------------------------|
A  |----------------------------------------|     
Eb |----------------------------------------|

d  |--------------------------------------------------------|
Bb |-----4-----4-------4---------------4----4------4--------|
G  |-3h5---3h5----3h5-----5--3--0--3h5--3h5---3h5-----5--3--|
D  |--------------------------------------------------------|
A  |--------------------------------------------------------|   
Eb |--------------------------------------------------------|


Guitar 2

d  |-x---x----x---x---x----x---|
Bb |-x---x----x---x---x----x---|
G  |-4---12---7---4---12---9---|
D  |-5---13---8---5---13---10--|
A  |-5---13---8---5---13---10--|        
Eb |-4---12---7---4---12---9---|

d  |-x---x----x---x---x----x---x---|
Bb |-x---x----x---x---x----x---x---|
G  |-4---12---7---4---12---12--9---|
D  |-5---13---8---5---13---13--10--|
A  |-5---13---8---5---13---13--10--|    
Eb |-4---12---7---4---12---0---9---|

Wooh, ooh ooh ooh
 
...glowing in the dark



Bridge

d  |-x----x----x-----|
Bb |-x----x----x-----|
G  |-14---12---7-----|
D  |-15---13---8-----|
A  |-15---13---8-----|  
Eb |-14---x----x-----|
 

 All the boys, all the girls
 All that matters in the world
 All the boys, all the girls
 All the madness that occurs

d  |-x----x-----x------|
Bb |-x----11----x------|
G  |-14---10----12-----|
D  |-15---12----13-----|
A  |-15---12----13-----|        
Eb |-14---x-----x------|

 All the highs, all the lows
 As the room is spinning goes
 
d  |--0-----|
Bb |--0-----|
G  |--0-----|
D  |--1-----|
A  |--1-----|   
Eb |--0-----|

 We'll run riot
 We'll be glowing in the dark
 
  P.M.---------------------|
d  |----------------------------|
Bb |----------------------------|
G  |----------------------------|
D  |----------------------------|
A  |----------------------------|       
Eb |--4---12---7---4---12---9---|


Interlude

Guitar 1

d  |-------------------8-----8---8---8--8---|
Bb |-----12----12---------------------------|
G  |-/10----10-----7h8---8-7---7---7---7--7-|
D  |----------------------------------------|
A  |----------------------------------------|     
Eb |----------------------------------------|

d  |--------------------------------------------------------|
Bb |-----4-----4-------4---------------4----4------4--------|
G  |-3h5---3h5----3h5-----5--3--0--3h5--3h5---3h5-----5--3--|
D  |--------------------------------------------------------|
A  |--------------------------------------------------------|   
Eb |--------------------------------------------------------|


Guitar 2

d  |-x---x----x---x---x----x---|
Bb |-x---x----x---x---x----x---|
G  |-4---12---7---4---12---9---|
D  |-5---13---8---5---13---10--|
A  |-5---13---8---5---13---10--|        
Eb |-4---12---7---4---12---9---|

d  |-x---x----x---x---x----x---x---|
Bb |-x---x----x---x---x----x---x---|
G  |-4---12---7---4---12---12--9---|
D  |-5---13---8---5---13---13--10--|
A  |-5---13---8---5---13---13--10--|    
Eb |-4---12---7---4---12---0---9---|


Wooh, ooh ooh ooh
 
d  |--0---0---0---0----------|
Bb |--0---0---0---0----------|
G  |--4---0---2---0----------|
D  |--5---1---3---1----------|
A  |--5---1---3---1----------|  
Eb |--4---0---x---0----------|
 
 So we soar luminous and wired
 
d  |--0-----|
Bb |--0-----|
G  |--7-----|
D  |--8-----|
A  |--8-----|   
Eb |--x-----|

We'll be glowing in the dark 

Fuente: http://tabs.ultimate-guitar.com/c/coldplay/charlie_brown_acoustic_ukulele_crd.htm